Gulum.net



şarkı sözleri | biyografi | rüya | türkü | türkiye | sohbet | müzik | şiir şair | hikaye | fıkra | oyun | hazır mesaj | gül resimleri

nirvana somethıng ın the way akor nirvana somethıng ın the way akorunirvana somethıng ın the way akor nirvana somethıng ın the way akoru
Akor



a  b  c  ç  d  e  f  g  h  ı  i  j  k  l  m  n  o  ö  p  r  s  ş  t  u  ü  v  y  z 
somethıng ın the way
SOMETHING IN THE WAY by Kurt Cobain


Intro/Verse:

D|---------------------------------|
A|---------------------------------|
F|---------------------------------|
C|---4-----4---4-4-0-----0---0-0---|
G|---4-----4---4-4-0-----0---0-0---|
C|---4-----4---4-4-0---------0-----|

Underneath the bride....

Chorus:

e|--------------------------------------|
B|-------------------------3-3----3-3---|
G|-------------------------2-2----2-2---|
B|---4-----4-4----4-4-0----0-0----0-0---|
A|---4-----4-4----4-4-0----0-0----0-0---|
E|---4-----4-4----4-4-0-----------------|

Something in the ...







Tune to:  Db Ab Db Gb Bb eb  (low to hi)


Intro:
e|--------------------------|
B|--------------------------|
G|--------------------------|
D|--------------------------|
A|----4----4-------0----0---|
D|-4-----4---4--0-----0---0-|

Verse:
e|-------------------------|
B|-------------------------|
G|-------------------------|
D|-------------------------|
A|-4---4--4-4---0---0--0-0-|
D|-4---4--4-4---0---0--0-0-|

Chorus:
e|-------------------------|
B|--------------3---3--3-3-|
G|--------------2---2--2-2-|
D|--------------0---0--0-0-|
A|-4---4--4-4---0---0--0-0-|
D|-4---4--4-4---x---x--x-x-|



nirvana
3255 kez okundu



.:: Gulum.NET ::. 2002 - 2017 © Kalp Sevmekten Yorulmaz

Mobil Oto Cam  |  Sohbet Odaları  |  sohbet  |  sık kullanılanlara ekle  |  açılış sayfası yap  |  tavsiye et  |  gizlilik politikası