Gulum.net



şarkı sözleri | biyografi | rüya | türkü | türkiye | sohbet | müzik | şiir şair | hikaye | fıkra | oyun | hazır mesaj | gül resimleri

feridun düzağaç aşkın e hali akor feridun düzağaç aşkın e hali akoruferidun düzağaç aşkın e hali akor feridun düzağaç aşkın e hali akoru
Akor



a  b  c  ç  d  e  f  g  h  ı  i  j  k  l  m  n  o  ö  p  r  s  ş  t  u  ü  v  y  z 
aşkın e hali
Gm F D# D Cm

e--------13--------------------------------------------------------------------
------------
B---11/13--15---------13-15------------13-15-------13-15-15/18-16-15-16~-------
------------
G------------15-12~-15-----15--15-15-15-------15-15----------------------15-
15h14-15h14-15-

e-------------------------------------------------------------------10-8-7-8~--
------------
B-------------------------------------------16h15-13-15~-----------------------
------------
G---15-15-15/17-17/19-14~--12-14-15-12-12-12-------------12-12-14-15---------
12-12h11-12h11

e--------------------------
B--------------------------
G---12--12-12-14-14b16-11~-

Gm          Am                  Gm    
Hiçbir şeyi senin kadar istemedim
         Gm
Ama yetmiyor ne kadar istesemde
     F          D#         D    
Gözlerindeki resmin gitmiyor
      Gm                 F
Yağmurlar içime içime içime yağıyor
              D#       D
İçimdeki kuraklık bitmiyor
Cm          F   D#                   D   
Bitmez sandığım yollar aynı çıkmazda tükeniyor
         Gm          F           D#          D     
Çünkü yoksun gelmiyorsun bir çığ gibi büyüyorsun

D---12-12-8h10-8~------10-10-10h12-10~--8-8-8h10-8~-      

Gm         
Aşk bu mu,aşk acı mı
F
Acıtır mı,incitir mi
D#                           D
Aşk bunu bana yapmaya mecbur mu?



feridun düzağaç
3884 kez okundu



.:: Gulum.NET ::. 2002 - 2017 © Kalp Sevmekten Yorulmaz

Mobil Oto Cam  |  Sohbet Odaları  |  sohbet  |  sık kullanılanlara ekle  |  açılış sayfası yap  |  tavsiye et  |  gizlilik politikası