Gulum.net



şarkı sözleri | biyografi | rüya | türkü | türkiye | sohbet | müzik | şiir şair | hikaye | fıkra | oyun | hazır mesaj | gül resimleri

teoman sevdim seni birkere akor teoman sevdim seni birkere akoruteoman sevdim seni birkere akor teoman sevdim seni birkere akoru
Akor



a  b  c  ç  d  e  f  g  h  ı  i  j  k  l  m  n  o  ö  p  r  s  ş  t  u  ü  v  y  z 
sevdim seni birkere
İntro:

  C#m                 G#            B            C#m
|------7---------------------------------9-7--------
|--9~~---10-9-7--9/10/9~~--9-10-9-7---7~-----10-7--9
|-----------------------------------9---------------
|---------------------------------------------------
|---------------------------------------------------
|---------------------------------------------------
  C#m                 G#            B            C#m
|------7--------------------------------------------
|--9~~---10-9-7--9/10/9~~--9-10-9-7---7~------------
|-----------------------------------9----8-9-8-6-5-6
|---------------------------------------------------
|---------------------------------------------------
|---------------------------------------------------


C#m                       )
Sevdim Seni Bir Kere      )
                          )
Baskasini sevemem         )
                          )
Deli diyorlar bana        )
B                         )X2
Desinler degisemem        )
A                         )
Desinler degisemem        )
G#               C#m      )
Desinler değişemem        )
C#m
Daha yolun başındasın
B                   
Değişirsin diyorlar

Oysa sana çıkıyor
G#
Bildiğim bütün yollar
C#m                        )
Sevgi anlaşmak değildir    )
B                          )
Nedensi de sevilir         )
A                          )X2
Bazen küçük bir an için    )
G#        C#m              )
Ömür bile verilir          




teoman
9477 kez okundu



.:: Gulum.NET ::. 2002 - 2015 © Kalp Sevmekten Yorulmaz

Mobil Oto Cam  |  sohbet  |  sık kullanılanlara ekle  |  açılış sayfası yap  |  tavsiye et  |  gizlilik politikası