Gulum.net



şarkı sözleri | biyografi | rüya | türkü | türkiye | sohbet | müzik | şiir şair | hikaye | fıkra | oyun | hazır mesaj | gül resimleri

kıraç aliye akor kıraç aliye akorukıraç aliye akor kıraç aliye akoru
Akor



a  b  c  ç  d  e  f  g  h  ı  i  j  k  l  m  n  o  ö  p  r  s  ş  t  u  ü  v  y  z 
aliye

E||--------7--7---------|------10-8-7-8-7-5-7-5-3-5-3-1-|

B||------5--------------|-------------------------------|

G||---------------------|-------------------------------|

D||---------------------|-------------------------------|

A||---------------------|-------------------------------|

E||---------------------|-------------------------------|



--3-1-0--0-7--7---------|------10-8-7-8-7-5-7-5-3-5-3-1-|

------------------------|-------------------------------|

------------------------|-------------------------------|

------------------------|-------------------------------|

------------------------|-------------------------------|

------------------------|-------------------------------|



--3-1-0--0-5--5---------|------8-7-5-7-5-3-5-3-1-3-1-0-|

------------------------|------------------------------|

------------------------|------------------------------|

------------------------|------------------------------|

------------------------|------------------------------|

------------------------|------------------------------|



--1-0------3--3---1--5----|--3--1--0------------|--------------||

------3--3----------------|---------------------|--------------||

--------------------------|---------------------|--------------||

--------------------------|---------------------|--------------||

--------------------------|---------------------|--------------||

--------------------------|---------------------|--------------||





  






kıraç
7084 kez okundu






.:: Gulum.NET ::. 2002 - 2015 © Kalp Sevmekten Yorulmaz

Mobil Oto Cam  |  sohbet  |  sık kullanılanlara ekle  |  açılış sayfası yap  |  tavsiye et  |  gizlilik politikası